スポンサーサイト

上記の広告は1ヶ月以上更新のないブログに表示されています。
新しい記事を書く事で広告が消せます。

日常と地球の額縁 TAB譜ぽいもの。

皆さん wowaka さんを知っているでしょうか?

ボカロで曲作ってたりと素晴らしいお方です


そんな wowaka さんの曲のひとつ

日常と地球の額縁

のイントロ部のTABぽいものです。

耳コピなんで正解とは限りませんww


----------8-------------------------------------8---------------9--8--
-------11---------11------9----------------11--------11-------------
--10----------10------10---10--------10----------10------10-------
-----------------------------------------------------------------------
-----------------------------------------------------------------------
-----------------------------------------------------------------------

----------8-----------------------------------8-----------------9--8--
-------11---------11------9----11-------11----------11--------------
--10----------10------10---10-----10------------10-------10--------
------------------------------------------------------------------------
------------------------------------------------------------------------
------------------------------------------------------------------------


これの繰り返しです♪

なかなかはやいので集中して弾きましょう(´ω)/

イントロ部以外でも

サビ部でも弾いてるんじゃないかなーww


あんまり有名な曲でないですけど

この曲のギターの入りが結構好きで♪


YouTube か ニコ動 で検索してはいかがでしょう(°∀≦)/



うまくいったら楽譜うpするかも♪
スポンサーサイト

コメントの投稿

非公開コメント

Pika_Mouse

powered by
3ET

PikaPika_Atlantis

Present's by
3ET
ROCKとかPUNKとかBANDとかの点取り占い
最新記事
最新コメント
最新トラックバック
月別アーカイブ
カテゴリ
プロフィール
オンラインカウンター
現在の閲覧者数:
全来客数
リンク
カレンダー
09 | 2017/10 | 11
1 2 3 4 5 6 7
8 9 10 11 12 13 14
15 16 17 18 19 20 21
22 23 24 25 26 27 28
29 30 31 - - - -
検索フォーム
RSSリンクの表示
ブロとも申請フォーム

この人とブロともになる

QRコード
QR
上記広告は1ヶ月以上更新のないブログに表示されています。新しい記事を書くことで広告を消せます。